ElaKiri Community
Downloads
Go Back   ElaKiri Community > General > ElaKiri Help
Reload this Page KeyBoard NOTES for Sinhala Songs
Reply
 
Thread Tools
(#1)
Old
Master Ken's Avatar
Master Ken Master Ken is offline
Senior Member
Master Ken will become famous soon enoughMaster Ken will become famous soon enough
 
Posts: 878
Join Date: Mar 2010
Location: New York
? KeyBoard NOTES for Sinhala Songs - 04-04-2010, 01:05 PM

machoola..., macheela.... oyagollo langa Sinhala Sindu wala keyboard NOTES (NOTATIONS) thiyenawanam dennako... plsss...
Reply With Quote
(#2)
Old
nad253's Avatar
nad253 nad253 is offline
Senior Member
nad253 is a jewel in the roughnad253 is a jewel in the roughnad253 is a jewel in the roughnad253 is a jewel in the roughnad253 is a jewel in the roughnad253 is a jewel in the rough
 
Posts: 13,072
Join Date: Oct 2006
Location: psruser.blogspot.com
04-04-2010, 01:13 PM

Quote:
Originally Posted by Master Ken View Post
machoola..., macheela.... oyagollo langa Sinhala Sindu wala keyboard NOTES (NOTATIONS) thiyenawanam dennako... plsss...
keyboard notes nam ne chords denna puluwan!
Reply With Quote
(#3)
Old
tharindudoo's Avatar
tharindudoo tharindudoo is offline
Senior Member
tharindudoo is a glorious beacon of lighttharindudoo is a glorious beacon of lighttharindudoo is a glorious beacon of lighttharindudoo is a glorious beacon of lighttharindudoo is a glorious beacon of lighttharindudoo is a glorious beacon of lighttharindudoo is a glorious beacon of lighttharindudoo is a glorious beacon of lighttharindudoo is a glorious beacon of lighttharindudoo is a glorious beacon of lighttharindudoo is a glorious beacon of light
 
Posts: 10,213
Join Date: Mar 2007
Location: ..ජනේලේ ගාව....
Send a message via ICQ to tharindudoo Send a message via AIM to tharindudoo Send a message via MSN to tharindudoo Send a message via Yahoo to tharindudoo
04-04-2010, 01:29 PM

Cindarella intro-Kithsiri Jayasekara




e|-5-4-5--5-4-9--5-9-10--4>5--5---------5-5-----7-7-------5----------------------------------|
B|--------------------------------7-5-5-7----5-7-----7-5--5--7---------------------|
G|------------------------------------------------------------------------|
D|------------------------------------------------------------------------|
A|------------------------------------------------------------------------|
E|------------------------------------------------------------------------|
Reply With Quote
(#4)
Old
tharindudoo's Avatar
tharindudoo tharindudoo is offline
Senior Member
tharindudoo is a glorious beacon of lighttharindudoo is a glorious beacon of lighttharindudoo is a glorious beacon of lighttharindudoo is a glorious beacon of lighttharindudoo is a glorious beacon of lighttharindudoo is a glorious beacon of lighttharindudoo is a glorious beacon of lighttharindudoo is a glorious beacon of lighttharindudoo is a glorious beacon of lighttharindudoo is a glorious beacon of lighttharindudoo is a glorious beacon of light
 
Posts: 10,213
Join Date: Mar 2007
Location: ..ජනේලේ ගාව....
Send a message via ICQ to tharindudoo Send a message via AIM to tharindudoo Send a message via MSN to tharindudoo Send a message via Yahoo to tharindudoo
04-04-2010, 01:31 PM

Daivayogayakin intro-Victor Ratnayake



e|------------------------------------------------------------------------|
B|-3-3-3-------------------------------------------------------------------|
G|-------5-5-5-4-4-4-2-2-2-------------------2------------------------------------|
D|--------------------------5-5--4-5-4--2-4-5-------------------------------------|
A|------------------------------------------------------------------------|
E|------------------------------------------------------------------------|


e|------------------------------------------------------------------------|
B|------------------------------------------------------------------------|
G|-5-5-5-4-4-4-2-2-2-------------------------------------------------------|
D|--------------------5-5-5--4-4-2-4-2--------------------------------------|
A|--------------------------------------5--2-3-5------------------------------|
E|----------------------------------------3--------------------------------|
Reply With Quote
(#5)
Old
Master Ken's Avatar
Master Ken Master Ken is offline
Senior Member
Master Ken will become famous soon enoughMaster Ken will become famous soon enough
 
Posts: 878
Join Date: Mar 2010
Location: New York
04-04-2010, 01:35 PM

Quote:
Originally Posted by nad253 View Post
keyboard notes nam ne chords denna puluwan!
chords nam mage gaawa thiyenawa machoo..
mata notes thamai onee... thiyenawanam diyan machan... thankuu wewa!!
Reply With Quote
(#6)
Old
Master Ken's Avatar
Master Ken Master Ken is offline
Senior Member
Master Ken will become famous soon enoughMaster Ken will become famous soon enough
 
Posts: 878
Join Date: Mar 2010
Location: New York
04-04-2010, 01:38 PM

Quote:
Originally Posted by tharindudoo View Post
Cindarella intro-Kithsiri Jayasekara




e|-5-4-5--5-4-9--5-9-10--4>5--5---------5-5-----7-7-------5----------------------------------|
B|--------------------------------7-5-5-7----5-7-----7-5--5--7---------------------|
G|------------------------------------------------------------------------|
D|------------------------------------------------------------------------|
A|------------------------------------------------------------------------|
E|------------------------------------------------------------------------|

Quote:
Originally Posted by tharindudoo View Post
Daivayogayakin intro-Victor Ratnayake



e|------------------------------------------------------------------------|
B|-3-3-3-------------------------------------------------------------------|
G|-------5-5-5-4-4-4-2-2-2-------------------2------------------------------------|
D|--------------------------5-5--4-5-4--2-4-5-------------------------------------|
A|------------------------------------------------------------------------|
E|------------------------------------------------------------------------|


e|------------------------------------------------------------------------|
B|------------------------------------------------------------------------|
G|-5-5-5-4-4-4-2-2-2-------------------------------------------------------|
D|--------------------5-5-5--4-4-2-4-2--------------------------------------|
A|--------------------------------------5--2-3-5------------------------------|
E|----------------------------------------3--------------------------------|
thanks bro... guitar rabs walin mama notes walata convert kara gannam... methana thiyenne INTRO & INTER parts tika neee... mata song eke notes thamai machan onee..

puluwan nam diyan..
Reply With Quote
(#7)
Old
nad253's Avatar
nad253 nad253 is offline
Senior Member
nad253 is a jewel in the roughnad253 is a jewel in the roughnad253 is a jewel in the roughnad253 is a jewel in the roughnad253 is a jewel in the roughnad253 is a jewel in the rough
 
Posts: 13,072
Join Date: Oct 2006
Location: psruser.blogspot.com
04-04-2010, 01:42 PM

Quote:
Originally Posted by Master Ken View Post
chords nam mage gaawa thiyenawa machoo..
mata notes thamai onee... thiyenawanam diyan machan... thankuu wewa!!
chords thiyanawanam notes hoya ganna lesi ne ....
k man try ekak dennam!
Reply With Quote
(#8)
Old
tharindudoo's Avatar
tharindudoo tharindudoo is offline
Senior Member
tharindudoo is a glorious beacon of lighttharindudoo is a glorious beacon of lighttharindudoo is a glorious beacon of lighttharindudoo is a glorious beacon of lighttharindudoo is a glorious beacon of lighttharindudoo is a glorious beacon of lighttharindudoo is a glorious beacon of lighttharindudoo is a glorious beacon of lighttharindudoo is a glorious beacon of lighttharindudoo is a glorious beacon of lighttharindudoo is a glorious beacon of light
 
Posts: 10,213
Join Date: Mar 2007
Location: ..ජනේලේ ගාව....
Send a message via ICQ to tharindudoo Send a message via AIM to tharindudoo Send a message via MSN to tharindudoo Send a message via Yahoo to tharindudoo
04-04-2010, 01:44 PM

onna magen podi thaggak

Reply With Quote
(#9)
Old
Master Ken's Avatar
Master Ken Master Ken is offline
Senior Member
Master Ken will become famous soon enoughMaster Ken will become famous soon enough
 
Posts: 878
Join Date: Mar 2010
Location: New York
04-04-2010, 01:45 PM

Quote:
Originally Posted by nad253 View Post
chords thiyanawanam notes hoya ganna lesi ne ....
k man try ekak dennam!
ow machoo.. but mama guitarist kenek... keyboard ekak alla witarai thiyenne... me notes tika mage closema friend kenekta... mata guitar eken song eka allala notes tika liyaganna tharam welawak nehe machan... ekai thiyena ekekgen illuwe..

thankuu massinaa puluwannam try paarak daala deehankoo..
Reply With Quote
(#10)
Old
Master Ken's Avatar
Master Ken Master Ken is offline
Senior Member
Master Ken will become famous soon enoughMaster Ken will become famous soon enough
 
Posts: 878
Join Date: Mar 2010
Location: New York
Up 04-04-2010, 01:47 PM

Quote:
Originally Posted by tharindudoo View Post
onna magen podi thaggak
watinawa machoo.. thawa thiyenawanam daapan.. thankuu uparimaa..
Reply With Quote
Reply

Bookmarks

Thread Tools

Posting Rules
You may not post new threads
You may not post replies
You may not post attachments
You may not edit your posts

BB code is On
Smilies are On
[IMG] code is On
HTML code is Off

Forum Jump



Copyright © 2006 - 2011 ElaKiri™ Beta2.Evo vBulletin, vBa iBproArcade Subdreamer I-Magic MKv
Optimisation plugin by DBtech

Page generated in 0.07944 seconds with 8 queries